行きたい日付からパパッと検索!航空券の最安値が見つかる!

Labuan Bajo出发
出发

登巴萨(巴厘岛)之旅
丹帕沙航班

相反航线的丹帕沙出发 Labuan Bajo之旅

票价会因出发日期有所变动,请点击行事历上日期选择去程日期。

去程日期

2020/9
周日 周一 周二 周三 周四 周五 周六
1------2------3------4------5------
6------7------8------9------10------11------12------
13------14------15------16------17------18------19------
20------21------22------23------24------25------26------
27------28------29------30搜寻
请选择去程日期   更改去程出发日期

回程日期

2020/9
周日周一周二周三周四周五周六
1------2------3------4------5------
6------7------8------9------10------11------12------
13------14------15------16------17------18------19------
20------21------22------23------24------25------26------
27------28------29------30------
  请选择去程日期

货币:人民币 读取中取得价格重新取得

去程日期
回程日期
总额(往返/经济)

※显示的价格会与实际搜寻结果的价格有差异

  • Labuan Bajo出发-丹帕沙航班

    9月低价机票最低票价 -----
  • Labuan Bajo出发-丹帕沙航班

    10月低价机票最低票价 -----
  • Labuan Bajo出发-丹帕沙航班

    11月低价机票最低票价 -----
  • Labuan Bajo出发-丹帕沙航班

    12月低价机票最低票价 -----
  • Labuan Bajo出发-丹帕沙航班

    1月低价机票最低票价 -----
  • Labuan Bajo出发-登巴萨(巴厘岛)之旅
    所需时间

    1小时35
  • Labuan Bajo出发-登巴萨(巴厘岛)航班
    营运航空公司

    1

用SKYTICKET的超级特价机票,去看壮丽宏伟的景色! 请马上搜索吧

简单预约!最廉价搜索!在SKYTICKET轻松登陆!预约完成只要3分钟

Labuan Bajo出发登巴萨(巴厘岛)之旅的机票的话决定用SKYTICKET!

使用超级便宜的SKYTICKET开展女生们之旅!大家往登巴萨(巴厘岛)去吧~

用SKYTICKET能够非常简单地预约,年长者也能放心使用。

从Labuan Bajo出发-登巴萨(巴厘岛)之旅的廉价机票,要订机票的话SKYTICKET

使用SKYTICKET的机票从轻松的出发旅行吧!

用廉价方式可以到达登巴萨(巴厘岛)!用SKYTICKET实惠地旅游吧!

便宜划算的旅行的话,推荐SKYTICKET。售完之前赶紧下手

在SKYTICKET搜索廉价航空公司或人气航空公司的最廉价格!搜索范围超过700家公司。

Labuan Bajo出发-丹帕沙航班超值机票skyticket!

ステータス:
メッセージ1
メッセージ2
メッセージ3
メッセージ4
メッセージ5
メッセージ6
メッセージ7
メッセージ8
メッセージ9
メッセージ10
メッセージ11
メッセージ12
メッセージ13
メッセージ14