行きたい日付からパパッと検索!航空券の最安値が見つかる!

登巴萨(巴厘岛)出发
丹帕沙出发

Labuan Bajo之旅
航班

相反航线的LBJ出发 丹帕沙之旅

票价会因出发日期有所变动,请点击行事历上日期选择去程日期。

去程日期

2020/10
周日 周一 周二 周三 周四 周五 周六
1------2------3------
4------5------6------7------8------9------10------
11------12------13------14------15------16------17------
18------19------20------21------22------23------24------
25------26------27------28------29搜寻301,842311,287
请选择返程日期   更改去程出发日期

回程日期

2020/10
周日周一周二周三周四周五周六
1------2------3------
4------5------6------7------8------9------10------
11------12------13------14------15------16------17------
18------19------20------21------22------23------24------
25------26------27------28------29------30------31------
  请选择去程日期

货币:人民币 读取中取得价格重新取得

去程日期
回程日期
总额(往返/经济舱)

※显示的价格会与实际搜寻结果的价格有差异

  • 丹帕沙出发-LBJ航班

    10月低价机票最低票价

    CNY1,287


    此航班价格的航空公司为印度尼西亚鹰航空公司


    设定为本月行事曆
  • 丹帕沙出发-LBJ航班

    11月低价机票最低票价

    CNY1,298


    此航班价格的航空公司为印度尼西亚鹰航空公司


    设定为本月行事曆
  • 丹帕沙出发-LBJ航班

    12月低价机票最低票价

    CNY1,285


    此航班价格的航空公司为印度尼西亚鹰航空公司


    设定为本月行事曆
  • 丹帕沙出发-LBJ航班

    1月低价机票最低票价

    CNY2,446


    此航班价格的航空公司为印度尼西亚鹰航空公司


    设定为本月行事曆
  • 丹帕沙出发-LBJ航班

    2月低价机票最低票价 -----
  • 登巴萨(巴厘岛)出发-Labuan Bajo之旅
    所需时间

    1小时00
  • 登巴萨(巴厘岛)出发-Labuan Bajo航班
    营运航空公司

    3
  • 登巴萨(巴厘岛)出发其他目的地

    ※价格根据空位状况而变动
  • Labuan Bajo航班其他出发地

    ※价格根据空位状况而变动

在SKYTICKET简单预约!用丹帕沙出发的廉价机票搭乘飞机吧!

Labuan Bajo抵达的机票,SKYTICKET便宜划算!

在Labuan Bajo可能有很多新的偶遇。预约海外机票请到SKYTICKET

用廉价机票去人气的观光圣地Labuan Bajo!越赶紧预约越划算

轻松去海外!用SKYTICKET的海外机票去吧!

使用SKYTICKET的机票从丹帕沙轻松的出发旅行吧!

SKYTICKET的廉价机票,去的机票也能简单地预约非常便利。

使用SKYTICKET的廉价机票从丹帕沙轻松的旅行吧!

可以在SKYTICKET订最廉价的海外机票。建议尽快预约哦。

在寻找海外机票的话SKYTICKET!可以轻松的旅行。可以从2000以上的机场搜索

丹帕沙出发-LBJ航班超值机票skyticket!

ステータス:
メッセージ1
メッセージ2
メッセージ3
メッセージ4
メッセージ5
メッセージ6
メッセージ7
メッセージ8
メッセージ9
メッセージ10
メッセージ11
メッセージ12
メッセージ13
メッセージ14